Taste Like Strawberries Chords

We bring you the song’s Taste Like Strawberries Chords sung by Harry Styles.

Taste Like Strawberries Chords

Rotate your phone or keep it on desktop site view for better experience

[Verse 1]
               Dm7
   Tastes like strawberries
        Am7
   On a summer evening
C                            G
   And it sounds just like a song
          Dm7
   I want more berries
            Am7
   And that summer feeling
C                        G
   It's so wonderful and warm
 
 
[Pre-Chorus]
           Dm7            Am7
Breathe me in, breathe me out
        C                           G
I don't know if I could ever go without
         Dm7          Am7
I'm just thinking out loud
        C                           G
I don't know if I could ever go without
 
 
[Chorus]
                 Dm7
Watermelon sugar high
                 Am7
Watermelon sugar high
                 C
Watermelon sugar high
                 N.C.
Watermelon sugar high
 
(Watermelon sugar)
 
 
[Verse 2]
   Dm7
   Strawberries
        Am7
   On a summer evening
C                          G
   Baby, you're the end of June
          Dm7
   I want your belly
            Am7
   And that summer feeling
C                         G
   Getting washed away in you
 
 
[Pre-Chorus]
           Dm7            Am7
Breathe me in, breathe me out
         C
I don't know if I could ever go without
 
 
[Chorus]
                 Dm7
Watermelon sugar high
                 Am7
Watermelon sugar high
                 C
Watermelon sugar high
                 G
Watermelon sugar high
                 Dm7
Watermelon sugar high
                 Am7
Watermelon sugar high
                 C
Watermelon sugar high
                 G
Watermelon sugar high
 
 
[Pre-Bridge]
Dm7
I just wanna taste it
Am7
I just wanna taste it
C                G
Watermelon sugar high
 
 
[Bridge]
               Dm7
   Tastes like strawberries
        Am7
   On a summer evening
C                            G
   And it sounds just like a song
          Dm7
   I want your belly
            Am7
   And that summer feeling
   N.C.
   I don't know if I could ever go without
 
 
[Chorus]
                 Dm7
Watermelon sugar high
                 Am7
Watermelon sugar high
                 C
Watermelon sugar high (Sugar!)
                 G
Watermelon sugar high (Sugar!)
                 Dm7
Watermelon sugar high
                 Am7
Watermelon sugar high
                 C
Watermelon sugar high
                 G
Watermelon sugar high
 
 
[Outro]
Dm7
I just wanna taste it
Am7
I just wanna taste it (Yeah)
C                G
Watermelon sugar high
Dm7
I just wanna taste it
Am7
I just wanna taste it
C                G
Watermelon sugar high
N.C.
Watermelon sugar
 
 
 
[Additional Parts]
  Synth Horn
e|--------------------------------|--------------------------------|
B|--------------------------------|--------------------------------|
G|--------------------------------|--------------------------------|
D|----------------3-2-------------|----------------3-2-------------|
A|5-------5-----5-------5-----5---|----------------------5-----5---|
E|--------------------------------|5-------5-----------------------|
  1 e + a 2 e + a 3 e + a 4 e + a etc.
e|--------------------------------|--------------------------------|
B|--------------------------------|--------------------------------|
G|--------------------------------|--------------------------------|
D|----------------3-2-------------|--------------------------------|
A|3-------3-------------3-----3---|5-------5-------------3-5---3---|
E|--------------------------------|------------------3-5-----------| 
 
  Horn Melody
e|--5-----------------------------|
B|8-----6-8---5-6---5-------------|
G|--------------------7-----------|
D|--------------------------------|
A|--------------------------------|
E|--------------------------------|

Video

The Taste Like Strawberries Chords ends here. If you have any query, leave us a comment. Thank You.

Related Posts