How to Play Sa Re Ga Ma Pa on Guitar Chords

We bring you How to Play Sa Re Ga Ma Pa on Guitar Chords Tutorial .

How to Play Sa Re Ga Ma Pa on Guitar Chords

Step1
1e|-------0-1-—3--5--7-8--------------------------------|
2B|--1--3---------------------------------------------------|
3G|----------------------------------------------------------|
4D|----------------------------------------------------------|
5A|-----------------------------------------------------------|
6E|-----------------------------------------------------------|
       Sa  Re  G   M   P   Dh   Ni   Sa

Step2 exercise
1e|------------0-0—1-1—-3-3--5-5--7-7-8-8----------|
2B|---1-1—3-3--------------------------------------------|
3G|----------------------------------------------------------|
4D|-----------------------------------------------------------|
5A|-----------------------------------------------------------|
6E|-----------------------------------------------------------|
       Sa-Sa   Re-Re  G-G   M-M   P-P   Dh-Dh   Ni-Ni   Sa-Sa

Step3 exercise
Sa-Re-Ga     Re-Ga-Ma     Ga-Ma-Pa     Ma-Pa-Dha     Pa-Dha-Ni     Dha-Ni-Sa

TheDeepakDotCom
TheDeepakDotCom

Step4
1e|-----------------------------------------------------------|
2B|---------1-2--4--6--8-9--------------------------------|
3G|---1--3--------------------------------------------------|
4D|----------------------------------------------------------|
5A|----------------------------------------------------------|
6E|----------------------------------------------------------|
       Sa   Re   G   M   P   Dh   Ni   Sa

Step5
1e|-----------------1--3-4---------------------------------|
2B|---------1-2--4----------------------------------------|
3G|---1--3-------------------------------------------------|
4D|---------------------------------------------------------|
5A|---------------------------------------------------------|
6E|---------------------------------------------------------|
       Sa   Re   G   M   P   Dh   Ni   Sa

Step6
1e|-----------------------------------------------------------|
2B|-----------------1--3-4----------------------------------|
3G|---------0-1--3------------------------------------------|
4D|---1--3---------------------------------------------------|
5A|-----------------------------------------------------------|
6E|-----------------------------------------------------------|
       Sa   Re   G   M   P   Dh   Ni   Sa

Step7
1e|-------------------------------------------------------|
2B|--------------------1-2------------------------------|
3G|--------------1--3-----------------------------------|
4D|------1--3-4----------------------------------------|
5A|---4--------------------------------------------------|
6E|-------------------------------------------------------|
      Sa   Re   G   M   P   Dh   Ni   Sa

Video

The How to Play Sa Re Ga Ma Pa on Guitar Chords ends here. If you have any query, leave us a comment. Thank You.

Related Posts