Dont Look Back Into the Sun Chords

We bring you the song’s Dont Look Back Into the Sun Chords sung by The Libertines.

Dont Look Back Into the Sun Chords

Rotate your phone or keep it on desktop site view for better experience

Chords:
 
          E       A       D       G       B       E
G         3       2       0       0       0       3
Em7       0       2       2       0       0       0
D         0       0       0       2       3       4
C         0       0       2       5       1       0
 
[Intro]
(guitar one palm muted)
 
e|----10----10----7----7----3—---5----10----10----------------|
B|----12----10----8----5----5—---7----10----10----------------|
G|----12—---11----7----5----5—---7----12----11----------------|
D|----12----12----9----5----5—---7----12----12----------------|
A|----10----12----7----7----3—---5----12----12----------------|
E|----10----10----7----7----3—---5----10----10----------------|
 
 
[Intro]
(guitar two, when chords stop)
 
e|---3---3---3-3---3---3-3---3---3-3---3---3-3---3---3-3---3---3-----------------|
B|----3-3-3-3-3-3-3-3-3-3-3-3-3-3-3-3-3-3-3-3-3-3-3-3-3-3-3-3-3-3----------------|
G|-------------------------------------------------------------------------------|
D|-------------------------------------------------------------------------------|
A|-------------------------------------------------------------------------------|
E|-------------------------------------------------------------------------------|
 
 
e|-------------------------------------------------------------------|
B|------0--0-1-3-1-0-0-1-3-1-0--0-1-3-0-1-3-0-1-0-1-3-1-0------------|
G|12\----------------------------------------------------------------|
D|-------------------------------------------------------------------|
A|-------------------------------------------------------------------|
E|-------------------------------------------------------------------|
 
e|----------3-----3-----5-3-23-23--------------------------------------|
B|------3-5---3-5---3-5-------------3-3-11-0-0-------------------------|
G|---------------------------------------------22----------------------|
D|---------------------------------------------------------------------|
A|---------------------------------------------------------------------|
E|---------------------------------------------------------------------|
 
 
[Verse 1]
 
G                D
Dont look back into the sun
Em7                    D
now you know that your time has come
C                       D                  G                D
and they said that it'd never come for you     (Oh Oh Oh Oh)
G                D
oh my friend you havent changed
Em7               D
looking rough and living strange
C                       D                    G              D
and I know the you've got a taste for it too
 
 
[Chorus]
 
C                                                G
They'll never forgive you but they won't let you go   (Oh No)
C                                                D
no she'll never forgive you but she wont let you go, oh no
 
 
[Verse 2]
 
G                         D
Don't look back into the sun
Em7                D
you got your past, but you are on the run
C                    D                   G               D
I know the lies you said you dared to say
G                                 D
When they played that song at the Death Disco
Em7                   D
It starts so fast and ends so slow
C                     D                   G               D
all the time just reminds me of me and you
 
 
[Chorus 2]
 
C                                                    G
Ah they will never forgive you but they wont let you go
(Let me go!!)
C                                             D
She'll never forgive you but she wont let you go, oh no
 
 
[Middle]
 
 
Guitar one plays Verse chords.
Guitar two riff one.
 
 
(Repeat Chorus two and Middle until the end)
 
 
 
************************************

Video

The Dont Look Back Into the Sun Chords ends here. If you have any query, leave us a comment. Thank You.

Related Posts